Results 1 to 20 of 46

Thread: What Swede71 is working on :)

Threaded View

  1. #1
    Senior Member swede71's Avatar
    Join Date
    May 2012
    Location
    Stockholm
    Posts
    582

    What Swede71 is working on :)

    Hi guys!Im working on arpeggioplaying ala Steve Morse.Very pianistic.I want to share with you forum members two examples of this style.Use a clean sound and play even eights with legato.Try using upstrokes on the higher notes and downstrokes on the lower notes.

    ex1.
    Code:
    e |----------------|----------------|----------------|----------------|
    B |------10--------|------7---------|------3---------|----3---2---0---|
    G |11----------9-11|7-----------6-7-|4---------------|----------------|
    D |----------------|----------4-----|------------2-4-|2-----2---2-----|
    A |----12----12----|----9---0-------|----5-----5-----|--0-----------0-|
    E |--10----9-------|--7-------------|--3-----2-------|----------------|da capo
       2 1 3 2 1 4 1 3  2 1 4 2   1 3 4  2 1 3 2 1 4 1 3  1   3 1 2 1

    ex2.
    Code:
    e |----|----------------|----------------|----------------|----------------|
    B |0-2-|3-----2---------|----5-7-8-----7-|-------12-----10|----------------|
    G |----|--------4-----2-|----------------|9-----7---------|----9----11-----|
    D |----|----4-----------|4-0---------9---|-----------12---|-12-------------|
    A |----|--2---------5---|----------7-----|---10----10-----|9-----10------10|
    E |----|----------3-----|----------------|--8-------------|-----8------9---|da capo
         1  2 1 3 1 3 1 4 1  3   1 2 2 1 3 1  3 1 4 1 4 1 3 2  1 4 21 3 4  1 3
    Last edited by swede71; 01-29-2013 at 06:00 PM.
    I de-modded my CU22 soapbar and made a factory spec setup.Im in love again.I very much believe now PRS guitars are perfect as they are.

Posting Permissions

  • You may not post new threads
  • You may not post replies
  • You may not post attachments
  • You may not edit your posts
  •