Hey everyone....a thread on this solo appeared on a different forum. Here are two youtube videos that provide two different tutorials. Here are the tabbed out notes to the solo.

I figure it will take me about a month to nail this. It's taken me about 3 days just to get through the first 20 seconds of this 60 second solo.

I am hoping that those of you that have the chops will post videos of you playing the solo.

Additionally, any advice, tricks or other videos/tabs that may be useful in learning this solo would be appreciated.

Maybe we shpould have a "Lessons and Tutorials" section in this forum. But for now, anyone who would like to add a post to help the learning process would be appreciated.

Here are the videos I am using as tutorials:
First:
http://www.walkerguitar.com/solos/38...rlemagne-solo/

Second:

http://www.learnblueslicks.com/kid-c...rlemagne-solo/

Here are the notes, tabbed out...


Solo

E-----------------------------------------8--10b12--10p8-10p8----|
B------------------------------------8-10---------------------10-|
G----7b9--r7p5---7b9r7b9-r7------7/9-----------------------------|
D--------------7-------------------------------------------------|
A----------------------------------------------------------------|
E----------------------------------------------------------------|

E--8/10/8---------------------------14----14-14b15--14--------12-|
B--------------------------13-15/16----16---------------10/12----|
G-----------------------14---------------------------------------|
D-----------------14/15------------------------------------------|
A----------------------------------------------------------------|
E----------------------------------------------------------------|

E-14b15r14-12-------------------------17-----19r17p15-17--15---15-|
B-------------------15-17----15----15------------------------15---|
G-------------12/14-------14----14--------------------------------|
D-----------------------------------------------------------------|
A-----------------------------------------------------------------|
E-----------------------------------------------------------------|

E-------------------15-19-15-17-19-14------------------15-17b19-17-|
B-17-----------15-17------------------15---------15-17-------------|
G----16---14/16--------------------------16-14-16------------------|
D------------------------------------------------------------------|
A------------------------------------------------------------------|
E------------------------------------------------------------------|

E-----5-7b8--7--5--7--5/7-------10----------------8--10--10/12--|
B---5---------------------8--------8-------8--10----------------|
G---------------------------9-7----------/9--9---9--9---9-------|
D---------------------------------------------------------------|
A---------------------------------------------------------------|
E---------------------------------------------------------------|

E----------10----8---8-------------------------------------------|
B-10-13-------11---9---8--------------------5--------------------|
G------------------------9----------------5---5h7p5--------8---8-|
D--------------------------10-9-8-----6/7----------------7---7---|
A----------------------------------------------------7/9---------|
E----------------------------------------------------------------|

E-8--------------------------------------------------------------|
B---10b12--10----------------------------------------------------|
G-------------9--7-7/9------7--9-----7--9-----------------7------|
D--------------------------7--7-----7--7------------7-8-9---9-10-|
A----------------------------------------------7-10--------------|
E----------------------------------------------------------------|
[ Tab from: http://www.guitaretab.com/s/steely-dan/18305.html ]
E-----------8-10--11r10p8---------------------------------------|
B----8-9-10---------------11---11r10p8--------7b8h14p8r7--5h7p5-|
G--9-----------------------------------8bp----------------------|
D---------------------------------------------------------------|
A---------------------------------------------------------------|
E---------------------------------------------------------------|



I look forward to seeing any additiona demonstrations, or to getting any additional advice as to how to learn this (to me) quite complicated solo.